* พื้นที่โฆษณา

                 


               

หน้า: [1]   ลงล่าง
ผู้เขียน หัวข้อ: คอร์ดเพลง ถามจันทร์ (25 Hours)  (อ่าน 18420 ครั้ง)
0 สมาชิก และ 1 บุคคลทั่วไป กำลังดูหัวข้อนี้
admin(pentor)
ขอบคุณทุกท่านที่เข้ามาใช้บริการครับ
Administrator
เล่นตามร้าน
*****

ระดับความเชี่ยวชาญ 10
ออฟไลน์ ออฟไลน์

เพศ: ชาย
กระทู้: 914



เว็บไซต์
« เมื่อ: กันยายน 09, 2010, 08:34:48 pm »

<a href="http://www.youtube.com/watch?v=pU2rUxrI2ys" target="_blank">http://www.youtube.com/watch?v=pU2rUxrI2ys</a>

Intro: /A/D/A/D/
A                       D
ฉันเคย อยากลองเป็นพระจันทร์
          Bm               E
ลอยขึ้นฟ้าสักวัน ได้งั้นคงดี
A                D
พบเธอ จึงเข้าใจได้ทันที
          Bm                     E
บนท้องฟ้ามีแต่ฟ้า ไม่มีของดี
               F#m            C#m
        * อยู่บนนั้น มีแค่ดาวกับฟ้า
                   F#m             C#m
          อยู่ตรงนี้ อาจจะดีมากกว่า
                    Bm            E
          ได้ใกล้เธอ ยามผู้คนนิทรา
A                      D
ถามจันทร์ ข้างบนดีหรือเปล่า
       Bm                    E
มีแค่ฟ้ากับดาว เคยเหงาบ้างไหม
A                D
ฉันเอง ก็เคยเหงาไม่มีใคร
       Bm                      E
แต่วันนี้มีที่รัก อยู่เคียงหัวใจ

(ซ้ำ * )

Solo:  /F#m/C#m/F#m/C#m/
         /Bm/E/

(ซ้ำ *,* )

Solo: /A/D/Bm/E/ (2time)
        /A/
บันทึกการเข้า


มีปัญหาจากการใช้งาน.....หรือชี้เเจงเเนะนำ.....คลิก.....http://guitarthai108.com/index.php?topic=4.0

แจ้งความต้องการ...เปิดร้านค้า.......คลิก....http://guitarthai108.com/index.php?topic=5.0


admin(pentor)
ขอบคุณทุกท่านที่เข้ามาใช้บริการครับ
Administrator
เล่นตามร้าน
*****

ระดับความเชี่ยวชาญ 10
ออฟไลน์ ออฟไลน์

เพศ: ชาย
กระทู้: 914



เว็บไซต์
« ตอบ #1 เมื่อ: กันยายน 09, 2010, 08:53:45 pm »

intro
1>------------------------------------------------------------------0----------------------
2>----------0--------------------------0--------------------0----------2---0-------------
3>-----1------2--1--------------1--------2--1----------2------2--------------2------------
4>---2---2-----------2-------2-----2------------2----0----------------------------------
5>-0----------------------0--------------------------------------------------------------
6>----------------------------------------------------------------------------------------


1>---------------0----------------------------------------------------------------------
2>--------0---------2--0-----------------------0-------------------------0--------------
3>-----2-----2------------2-------------1----------2--1------------1--------2--1-------4
>--0------------------------0--------2----2-------------2-------2----2-----------2-----
5>---------------------------------0--------------------------0-----------------------0---
6>-----------------------------------------------------------------------------------------

1>----------0-----------------------0---------------------------------------
2>-----0-------2--0----------0---------2--0--------------------------------
3>--2----2-----------2----2-----2---------------2--------------------------
4>0----------------------0--------------------------0------------------------
5>--------------------------------------------------------------------------
6>----------------------------------------------------------------------------
บันทึกการเข้า


มีปัญหาจากการใช้งาน.....หรือชี้เเจงเเนะนำ.....คลิก.....http://guitarthai108.com/index.php?topic=4.0

แจ้งความต้องการ...เปิดร้านค้า.......คลิก....http://guitarthai108.com/index.php?topic=5.0


admin(pentor)
ขอบคุณทุกท่านที่เข้ามาใช้บริการครับ
Administrator
เล่นตามร้าน
*****

ระดับความเชี่ยวชาญ 10
ออฟไลน์ ออฟไลน์

เพศ: ชาย
กระทู้: 914



เว็บไซต์
« ตอบ #2 เมื่อ: กันยายน 09, 2010, 09:04:21 pm »

Solo 1>-------------------------------------------------------------------------------------------
2>------------------------------------------------------------------------------------------
3>-------------------------------------------------------------------------------------------
4>----------------------------------------------------------------------2-------------------
5>------------------------------------------------2----4--4--4--2--4----4--2--4--4--4---
6>-2--2--2--0--2--5--2--0--2--2--2--0--2--5----5--------------------------------------

1>------------------------------
2>-------------------------------
3>----------------------------- เล่นซ่ำ tab เริ่มต้นใหม่ ครับ
4>---------2-------------------
5>--2--4-----4--2-------------
6>---------------^ หลังจาก Solo ซ่ำแล้วมารอบต่อไปให้ตัด tab 2 ตัวนี่ออกครับ                           มาต่อ tab 1 ที่อยู่ด้านล้างครับ

1>-------------------------------------------------------------------------------------------
2>------------------------------------------------------------------------------------------
3>-------------------------------------------------------------------------------------------
4>(v ต่อ tab 1 ตรงนี่ครับ ^^)------------------------------------------------------------
5>-1--2--2--2--0--2--5--2--0--2--2--2--0--2--5--2--0--------------------------------
6>----------------------------------------------------------0--0-- tab 0 ตรงนี่ซ่ำจนจบ


บันทึกการเข้า


มีปัญหาจากการใช้งาน.....หรือชี้เเจงเเนะนำ.....คลิก.....http://guitarthai108.com/index.php?topic=4.0

แจ้งความต้องการ...เปิดร้านค้า.......คลิก....http://guitarthai108.com/index.php?topic=5.0


หน้า: [1]   ขึ้นบน
  พิมพ์  
 
กระโดดไป:  


* สถิติเว็บ